Chord/Tab song: Wasting Away – Tonight Alive | chords #1 Việt Nam

Có phải bạn đang muốn tìm Chord/Tab song: Wasting Away – Tonight Alive đúng không? Nếu đúng như vậy thì mời bạn xem ngay bảng hợp âm bài hát này ngay tại đây nhé.

Chord/Tab song: Wasting Away – Tonight Alive | Blogradio cung cấp hợp âm mới nhất.


-------------------------------------------------------------------------------

Wasting Away (Acoustic) – Tonight Alive


-------------------------------------------------------------------------------

Tabbed by: Jack Kranz
Email: forward_parkour@hotmail.com

Tuning: Drop D
PALM MUTES ARE OPTIONAL…. IF YOU DONT PLAY THESE NOTES IT SOUNDS LIEK THE SONG ITS
JUST SOUNDS BETTER TO PALM MUTE THEM WHEN PLAYIN ACOUSTIC WHICH IS WHAT I DO :)!


e|-----------------------------------------------------------------------------|
B|-----------------------------------------------------------------------------|
G|-----------------------------------------------------------------------------|
D|-4-4-4-4-4-4-4-4-4-4--6-6-6-6-6/7-7-7-7-7-7-7-7-7-7-7-7-7-7-6----------------|
A|-0-0-0-0-0-0-0-0-0-0--2-2-2-2-2/4-4-4-4-4-4-4-4-4-4-4-4-4-4-4----------------|
D|-0-0-0-0-0-0-0-0-0-0--2-2-2-2-2/4-4-4-4-4-4-4-4-4-4-4-4-4-4-4----------------|

X X X X X X
X X


e|-----------------------------------------------------------------------------|
B|-----------------------------------------------------------------------------|
G|-----------------------------------------------------------------------------|
D|-4-4-4-4-4-4-4-4-4-4--6-6-6-6-6--2-2-2-2-2-2-0-0-0-0-0-0-x-------------------|
A|-0-0-0-0-0-0-0-0-0-0--2-2-2-2-2--0-0-0-0-0-0-0-0-0-0-0-0-4-------------------|
D|-0-0-0-0-0-0-0-0-0-0--2-2-2-2-2--0-0-0-0-0-0-0-0-0-0-0-0-x-------------------|

X X X X X X

Chords used:
F#m 444xxx OR 44467x
D 000xxx OR 00023x
A 777xxx OR 77798x
E 222xxx OR 22245x

Chorus 1:
And so the s[F#m]ky becomes a [D]dream
I never [A]dreamt because I’m [E]just too busy
F#m D A E(hold)
Waiting for nothing and wasting away

Interlude: SEE TAB ABOVE ^

Verse 1:[D]Don’t tell me its too hard[F#m] You were never there from the s[E]tart[D] I’m not about to give this up[F#m] Giving up was never [E]enough[D] [E]no

Chorus 2:
And so the s[F#m]ky becomes a [D]dream
I never [A]dreamt because I’m [E]just too busy[F#m]Waiting for no[D]thing and [A]wasting a[E]way
And so the s[F#m]ky it watched my [D]dreams
Fall to [A]pieces right in [E]front of me
Cause I’m [F#m]just too busy[D]Waiting for [A]nothing and [E]wasting away

Verse 2:[D] And I’d never wish
for anything [F#m]more
Than to find what I’ve
been looking [E]for[D] And I swore to myself
I wouldn’t [F#m]lie to myself
How could I let this [E]happen?[D] So I take myself aside
to [F#m]take the time
To tell myself [E]its [D]alright
Cause you weren’t [F#m]there
E(hold)
to dry my eyes

(Repeat Chorus 2)

Bridge:[D] I’m wasting wasting a[E]way[F#m] I’m wasting wasting a[E]way[D][E][F#m]

Chorus 3:
And [E]so the s[D]ky becomes a [E]dream
I never [F#m]dreamt because I’m [E]just too busy
D E F#m E (hold)
Waiting for nothing and wasting away

(Repeat Chorus 2)

Outro:
D E F#m F#m(hold)
I’m wasting wasting away yeah


Vậy là Blogradio.org đã cung cấp cho bạn nội dung chủ đề Chord/Tab song: Wasting Away – Tonight Alive rồi nhé. Ngoài xem chord của bài hát này, bạn có thể xem thêm nhiều hợp âm bài hát mới nhất tại đây nha: https://blogradio.org/am-nhac.

Tìm kiếm liên quan đến chủ đề chord bản nhạc Chord/Tab song: Wasting Away – Tonight Alive.

#ChordTab #song #Wasting #Tonight #Alive.
Rất mong những thông tin này mang lại nhiều giá trị cho bạn, chân thành cảm ơn bạn đã theo dõi.

Trả lời

Email của bạn sẽ không được hiển thị công khai. Các trường bắt buộc được đánh dấu *